Love Will Keep Us Alivе1
 
#----------------------------------PLEASE NOTE---------------------------------#
#This file is the author's own work and represents their interpretation of the #
#song. You may only use this file for private study, scholarship, or research. #
#------------------------------------------------------------------------------##
From: bg7016884@v9001.ntu.ac.sg (WHIRLED_PEAS)

Love Will Keep Us Alive - EAGLES
-----------------------
From "Hell Freezes Over"
Written by Pete Vale/Jim Capaldi/Paul Carrack

Partially Transcribed by Taib Lokman (Nanyang Technological University)
Most of the work done by
Jeff Smith - JSMITH@MOBY.MSD.LMSC.LOCKHEED.COM (SunnyVale)

- Right, this is probably way off, but don't take my word for it. I didn't
tab this with accuracy in mind (it won't make a diff anyhow), just
simplicity. Slide Solo, anyone ?
Corrections,improvements ?, please email.

4/4 Timing.

VERSE :
-------
[----------------- Fill I ------------------------]
Asus2 Asus2
e:-------0--------------0--|-------0--------------0--|
B:----------0--------0-----|----------0--------0-----|
G:----------------2--------|----------------2--------|
D:----2--------------------|----2--------------------|
A:-0-----------------------|-0-----------------------|
E:-------------------------|-------------------------|
...standing All alone...

Esus4/F# Esus4/F#
e:-------0--------------0--|-------0--------------0--|
B:----------0--------0-----|----------0--------0-----|
G:----------------2--------|----------------2--------|
D:----2--------------------|----2--------------------|
A:-------------------------|-------------------------|
E:-2-----------------------|-2-----------------------|
...world outside

E7sus4/B E7sus4/B
e:-------0--------------0--|-------0--------------0--|
B:----------0--------0-----|----------0--------0-----|
G:----2-----------2--------|----2-----------2--------|
D:-------------------------|-------------------------|
A:-2-----------------------|-2-----------------------|
E:-------------------------|-------------------------| End of VERSE
...searching.. ...for a place...

[------------------- Fill II ----------------------]
E E
e:-------0--------------0--|--------------------0----|
B:----------0--------0-----|----------0------0-------|
G:----------------1--------|-------1-----1h2------2--|
D:----2--------------------|----2--------------------|
A:-------------------------|-------------------------|
E:-0-----------------------|-0-----------------------|
...hide

[------- Fill III -------]
e:-------0-----------0-----|
B:----------1-----------1--|
G:----------------2--------|
D:----2--------------------|
A:-------------2-----------|
E:-0-----------------------|
Love ....keep

CHORUS:
-------
D D
e:-------2--------------2--|--------2--------------2--|
B:----------3--------3-----|-----------3--------3-----|
G:----2-----------2--------|-----2-----------2--------|
D:-0-----------------------|--0-----------------------|
A:-------------------------|--------------------------|
E:-------------------------|--------------------------|
..die for you.. ..highest mountain

F#m F#m
e:-------2--------------2--|--------2--------------2--|
B:----------2--------2-----|-----------2--------2-----|
G:----------------2--------|-----------------2--------|
D:----4--------------------|-----4--------------------|
A:-------------------------|--------------------------|
E:-2-----------------------|--2-----------------------|

Bm7 Bm7
e:-------2--------------2--|--------2--------------2--|
B:----------3--------3-----|-----------3--------3-----|
G:----------------2--------|-----------------2--------|
D:----4--------------------|-----4--------------------|
A:-2-----------------------|--2-----------------------|
E:-------------------------|--------------------------|

E
e:----------0-----------0-----------0-------|
B:-------0-----------0-----------0----------|
G:----1-----------1-----------1-------------|
D:-------------0----------------------------|
A:-------------------------4-----------2----|
E:-0----------------------------------------| END of CHORUS


END:
----
Asus2 X 3 Asus2
e:-------0--------------0--|----0--------------------|
B:----------0--------0-----|----0--------------------|
G:----------------2--------|----2--------------------|
D:----2--------------------|----2--------------------|
A:-0-----------------------|----0--------------------|
E:-------------------------|-------------------------|


Intro : Verse + Fill II
-----

Verse + Fill II :
----------------
I was standing
All alone against the world outside
You were searching
For a place to hide
Verse + Fill III:
----------------
Lost and lonely
Now you've given me the will to survive
When we're hungry...love will keep us alive
Fill I :
--------
Verse + Fill II :
----------------
Don't you worry
Sometimes you've just gotta let it ride
The world is changing
Right before your eyes
Verse + Fill III :
-----------------
Now I've found you
There's no more emptiness inside
When we're hungry...love will keep us alive
Fill I :
--------
CHORUS :
------------
I would die for you
Climb the highest mountain
Baby, there's nothing I wouldn't do
Verse + Fill III :
-----------------
Now I've found you
There's no more emptiness inside
When we're hungry...love will keep us alive
SOLO
----
CHORUS :
------------
I would die for you
Climb the highest mountain
Baby, there's nothing I wouldn't do
Verse + Fill II :
-----------------
I was standing
All alone against the world outside
You were searching
For a place to hide
Verse + Fill III + END :
-----------------------
Lost and lonely
Now you've given me the will to survive
When we're hungry...love will keep us alive X 3

That's about the size.
Happy Playing !



DISCLAIMER
- If your guitar breaks in the course of playing this..blah..blah
- The University is not responsible for any..blah..neither am i...blah
--
Later....
/ Taib Lokman
/ BG7016884@ntuvax.ntu.ac.sg
/ Nanyang Technological University, Singapore

From: Phil Phan

"Love Will Keep Us Alive"
Eagles: Hell Freezes Over
Geffen 1994

This is my first tab so please excuse any errors. I did this by ear
so a few notes here and there might be extra/switched but you'll know when
you hear it. I threw in some bass notes to make it fuller. Since a lot is
repetitive I just tabbed the important stuff. This particular song seems
to please the ladies and is an easy acoustic piece, so enjoy. Solo is included.
Long live the Eagles!

The main part is:

4/4, pop feel - let notes ring out on acoustic guitar

A F#
-----0----------0--|-----0---------0-|-----0---------0-|-----0---------0---
-------0------0----|-------0-----0---|-------0-----0---|-------0-----0-----
---2--------2------|---2-------2-----|---2-------2-----|---2-------2-------
-------------------|-----------------|-----------------|-------------------
-0-----------------|-0---------------|-----------------|-------------------
-------------------|-----------------|-2---------------|-2-----------------

D E
-----0----------0--|-----0---------0-|-----0---------0-|-----0-----------0
-------0------0----|-------0-----0---|-------0-----0---|-------0-------0--
---2--------2------|---2-------2-----|---1-------1-----|---1-------1_2----
-0-----------------|-0---------------|-----------------|------------------
-------------------|-----------------|-----------------|------------------
-------------------|-----------------|-0---------------|-0----------------


Chorus goes as follows:

D Gb Minor
-----2----------2--|-----2---------2-|-----2---------2-|-----2---------2--
-------3------3----|-------3-----3---|-------2-----2---|-------2-----2----
---2--------2------|---2-------2-----|---2-------2-----|---2-------2------
-0-----------------|-0---------------|-----------------|------------------
-------------------|-----------------|-----------------|------------------
-------------------|-----------------|-2---------------|-2----------------


Bsus
-----2----------2--|-----2---------2-|-------0-------0-|-------0----------
-------0------0----|-------0-----0---|-----0-------0---|-----0------------
---2--------2------|---2-------2-----|---1-------1-----|---1--------------
-------------------|-----------------|-2-------0-------|------------------
-2-----------------|-2---------------|-----------------|-4-------2--------
-------------------|-----------------|-----------------|------------------

Don Felder's Solo goes as follows (use main chord progressions):

(with slide on electric guitar, reverb and chorus (?) )

A F# D E
--------------------------------------------------------------10----10--------
------5-5/7\5~~~-----7\5--------------------5-5/7~~~-----7/10----10----10/14~~
--5/6---------------------5/6~~~--------5/6---5/7~~~--------------------------
------------------------------------------------------------------------------
------------------------------------------------------------------------------
------------------------------------------------------------------------------


------------------------------------------------------------------------------
-14/15--13/14--10\5~~~--------------------------------------------------------
------------------------------------------------------------------------------
------------------------------------------------------------------------------
------------------------------------------------------------------------------
------------------------------------------------------------------------------



Хроника Eagles
Long Road Out of Eden


О будущих орлах
Lyrics Lyrics  LyricsLyrics

Eagles Rusian Fan Site 2008 © 2018 Российский фан сайт Eagles